ISO-10303-21;
HEADER;
/* Generated by software containing ST-Developer
 * from STEP Tools, Inc. (www.steptools.com) 
 */
/* OPTION: using custom renumber hook */

FILE_DESCRIPTION(
/* description */ ('STEP AP242',
'CAx-IF Rec.Pracs.---Representation and Presentation of Product Manufa
cturing Information (PMI)---4.0---2014-10-13',
'CAx-IF Rec.Pracs.---3D Tessellated Geometry---0.4---2014-09-14','2;1'),

/* implementation_level */ '2;1');

FILE_NAME(
/* name */ '681f760588f8237c677e7b63',
/* time_stamp */ '2025-05-10T15:51:34Z',
/* author */ (''),
/* organization */ (''),
/* preprocessor_version */ 'ST-DEVELOPER v20',
/* originating_system */ 'ONSHAPE BY PTC INC, 1.197',
/* authorisation */ '  ');

FILE_SCHEMA (('AP242_MANAGED_MODEL_BASED_3D_ENGINEERING_MIM_LF { 1 0 10303 442 1 1 4 }'));
ENDSEC;

DATA;
#10=SHAPE_REPRESENTATION_RELATIONSHIP('','',#249,#11);
#11=ADVANCED_BREP_SHAPE_REPRESENTATION('',(#247),#399);
#12=CYLINDRICAL_SURFACE('',#263,0.006);
#13=CYLINDRICAL_SURFACE('',#266,0.008);
#14=CIRCLE('',#262,0.008);
#15=CIRCLE('',#264,0.006);
#16=CIRCLE('',#265,0.006);
#17=CIRCLE('',#267,0.008);
#18=ORIENTED_EDGE('',*,*,#74,.T.);
#19=ORIENTED_EDGE('',*,*,#75,.F.);
#20=ORIENTED_EDGE('',*,*,#76,.F.);
#21=ORIENTED_EDGE('',*,*,#77,.T.);
#22=ORIENTED_EDGE('',*,*,#78,.T.);
#23=ORIENTED_EDGE('',*,*,#79,.F.);
#24=ORIENTED_EDGE('',*,*,#80,.F.);
#25=ORIENTED_EDGE('',*,*,#75,.T.);
#26=ORIENTED_EDGE('',*,*,#81,.F.);
#27=ORIENTED_EDGE('',*,*,#82,.F.);
#28=ORIENTED_EDGE('',*,*,#83,.T.);
#29=ORIENTED_EDGE('',*,*,#79,.T.);
#30=ORIENTED_EDGE('',*,*,#84,.F.);
#31=ORIENTED_EDGE('',*,*,#77,.F.);
#32=ORIENTED_EDGE('',*,*,#85,.T.);
#33=ORIENTED_EDGE('',*,*,#82,.T.);
#34=ORIENTED_EDGE('',*,*,#76,.T.);
#35=ORIENTED_EDGE('',*,*,#80,.T.);
#36=ORIENTED_EDGE('',*,*,#83,.F.);
#37=ORIENTED_EDGE('',*,*,#85,.F.);
#38=ORIENTED_EDGE('',*,*,#86,.T.);
#39=ORIENTED_EDGE('',*,*,#87,.T.);
#40=ORIENTED_EDGE('',*,*,#88,.T.);
#41=ORIENTED_EDGE('',*,*,#89,.T.);
#42=ORIENTED_EDGE('',*,*,#74,.F.);
#43=ORIENTED_EDGE('',*,*,#84,.T.);
#44=ORIENTED_EDGE('',*,*,#81,.T.);
#45=ORIENTED_EDGE('',*,*,#78,.F.);
#46=ORIENTED_EDGE('',*,*,#87,.F.);
#47=ORIENTED_EDGE('',*,*,#90,.F.);
#48=ORIENTED_EDGE('',*,*,#91,.T.);
#49=ORIENTED_EDGE('',*,*,#92,.T.);
#50=ORIENTED_EDGE('',*,*,#86,.F.);
#51=ORIENTED_EDGE('',*,*,#93,.F.);
#52=ORIENTED_EDGE('',*,*,#94,.T.);
#53=ORIENTED_EDGE('',*,*,#90,.T.);
#54=ORIENTED_EDGE('',*,*,#89,.F.);
#55=ORIENTED_EDGE('',*,*,#95,.F.);
#56=ORIENTED_EDGE('',*,*,#96,.T.);
#57=ORIENTED_EDGE('',*,*,#93,.T.);
#58=ORIENTED_EDGE('',*,*,#88,.F.);
#59=ORIENTED_EDGE('',*,*,#92,.F.);
#60=ORIENTED_EDGE('',*,*,#97,.T.);
#61=ORIENTED_EDGE('',*,*,#95,.T.);
#62=ORIENTED_EDGE('',*,*,#98,.F.);
#63=ORIENTED_EDGE('',*,*,#91,.F.);
#64=ORIENTED_EDGE('',*,*,#94,.F.);
#65=ORIENTED_EDGE('',*,*,#96,.F.);
#66=ORIENTED_EDGE('',*,*,#97,.F.);
#67=ORIENTED_EDGE('',*,*,#99,.T.);
#68=ORIENTED_EDGE('',*,*,#100,.T.);
#69=ORIENTED_EDGE('',*,*,#101,.F.);
#70=ORIENTED_EDGE('',*,*,#98,.T.);
#71=ORIENTED_EDGE('',*,*,#99,.F.);
#72=ORIENTED_EDGE('',*,*,#101,.T.);
#73=ORIENTED_EDGE('',*,*,#100,.F.);
#74=EDGE_CURVE('',#102,#103,#122,.T.);
#75=EDGE_CURVE('',#104,#103,#123,.T.);
#76=EDGE_CURVE('',#105,#104,#124,.T.);
#77=EDGE_CURVE('',#105,#102,#125,.T.);
#78=EDGE_CURVE('',#103,#106,#126,.T.);
#79=EDGE_CURVE('',#107,#106,#127,.T.);
#80=EDGE_CURVE('',#104,#107,#128,.T.);
#81=EDGE_CURVE('',#108,#106,#129,.T.);
#82=EDGE_CURVE('',#109,#108,#130,.T.);
#83=EDGE_CURVE('',#109,#107,#131,.T.);
#84=EDGE_CURVE('',#102,#108,#132,.T.);
#85=EDGE_CURVE('',#105,#109,#133,.T.);
#86=EDGE_CURVE('',#110,#111,#134,.T.);
#87=EDGE_CURVE('',#111,#112,#135,.T.);
#88=EDGE_CURVE('',#112,#113,#136,.T.);
#89=EDGE_CURVE('',#113,#110,#137,.T.);
#90=EDGE_CURVE('',#114,#111,#138,.T.);
#91=EDGE_CURVE('',#114,#115,#139,.T.);
#92=EDGE_CURVE('',#115,#112,#140,.T.);
#93=EDGE_CURVE('',#116,#110,#141,.T.);
#94=EDGE_CURVE('',#116,#114,#142,.T.);
#95=EDGE_CURVE('',#117,#113,#143,.T.);
#96=EDGE_CURVE('',#117,#116,#144,.T.);
#97=EDGE_CURVE('',#115,#117,#145,.T.);
#98=EDGE_CURVE('',#118,#118,#14,.T.);
#99=EDGE_CURVE('',#119,#119,#15,.T.);
#100=EDGE_CURVE('',#120,#120,#16,.F.);
#101=EDGE_CURVE('',#121,#121,#17,.T.);
#102=VERTEX_POINT('',#337);
#103=VERTEX_POINT('',#338);
#104=VERTEX_POINT('',#340);
#105=VERTEX_POINT('',#342);
#106=VERTEX_POINT('',#346);
#107=VERTEX_POINT('',#348);
#108=VERTEX_POINT('',#352);
#109=VERTEX_POINT('',#354);
#110=VERTEX_POINT('',#362);
#111=VERTEX_POINT('',#363);
#112=VERTEX_POINT('',#365);
#113=VERTEX_POINT('',#367);
#114=VERTEX_POINT('',#371);
#115=VERTEX_POINT('',#373);
#116=VERTEX_POINT('',#377);
#117=VERTEX_POINT('',#381);
#118=VERTEX_POINT('',#387);
#119=VERTEX_POINT('',#390);
#120=VERTEX_POINT('',#392);
#121=VERTEX_POINT('',#395);
#122=LINE('',#336,#146);
#123=LINE('',#339,#147);
#124=LINE('',#341,#148);
#125=LINE('',#343,#149);
#126=LINE('',#345,#150);
#127=LINE('',#347,#151);
#128=LINE('',#349,#152);
#129=LINE('',#351,#153);
#130=LINE('',#353,#154);
#131=LINE('',#355,#155);
#132=LINE('',#357,#156);
#133=LINE('',#358,#157);
#134=LINE('',#361,#158);
#135=LINE('',#364,#159);
#136=LINE('',#366,#160);
#137=LINE('',#368,#161);
#138=LINE('',#370,#162);
#139=LINE('',#372,#163);
#140=LINE('',#374,#164);
#141=LINE('',#376,#165);
#142=LINE('',#378,#166);
#143=LINE('',#380,#167);
#144=LINE('',#382,#168);
#145=LINE('',#384,#169);
#146=VECTOR('',#274,1.);
#147=VECTOR('',#275,1.);
#148=VECTOR('',#276,1.);
#149=VECTOR('',#277,1.);
#150=VECTOR('',#280,1.);
#151=VECTOR('',#281,1.);
#152=VECTOR('',#282,1.);
#153=VECTOR('',#285,1.);
#154=VECTOR('',#286,1.);
#155=VECTOR('',#287,1.);
#156=VECTOR('',#290,1.);
#157=VECTOR('',#291,1.);
#158=VECTOR('',#296,1.);
#159=VECTOR('',#297,1.);
#160=VECTOR('',#298,1.);
#161=VECTOR('',#299,1.);
#162=VECTOR('',#302,1.);
#163=VECTOR('',#303,1.);
#164=VECTOR('',#304,1.);
#165=VECTOR('',#307,1.);
#166=VECTOR('',#308,1.);
#167=VECTOR('',#311,1.);
#168=VECTOR('',#312,1.);
#169=VECTOR('',#315,1.);
#170=EDGE_LOOP('',(#18,#19,#20,#21));
#171=EDGE_LOOP('',(#22,#23,#24,#25));
#172=EDGE_LOOP('',(#26,#27,#28,#29));
#173=EDGE_LOOP('',(#30,#31,#32,#33));
#174=EDGE_LOOP('',(#34,#35,#36,#37));
#175=EDGE_LOOP('',(#38,#39,#40,#41));
#176=EDGE_LOOP('',(#42,#43,#44,#45));
#177=EDGE_LOOP('',(#46,#47,#48,#49));
#178=EDGE_LOOP('',(#50,#51,#52,#53));
#179=EDGE_LOOP('',(#54,#55,#56,#57));
#180=EDGE_LOOP('',(#58,#59,#60,#61));
#181=EDGE_LOOP('',(#62));
#182=EDGE_LOOP('',(#63,#64,#65,#66));
#183=EDGE_LOOP('',(#67));
#184=EDGE_LOOP('',(#68));
#185=EDGE_LOOP('',(#69));
#186=EDGE_LOOP('',(#70));
#187=EDGE_LOOP('',(#71));
#188=EDGE_LOOP('',(#72));
#189=EDGE_LOOP('',(#73));
#190=FACE_BOUND('',#170,.T.);
#191=FACE_BOUND('',#171,.T.);
#192=FACE_BOUND('',#172,.T.);
#193=FACE_BOUND('',#173,.T.);
#194=FACE_BOUND('',#174,.T.);
#195=FACE_BOUND('',#175,.T.);
#196=FACE_BOUND('',#176,.T.);
#197=FACE_BOUND('',#177,.T.);
#198=FACE_BOUND('',#178,.T.);
#199=FACE_BOUND('',#179,.T.);
#200=FACE_BOUND('',#180,.T.);
#201=FACE_BOUND('',#181,.T.);
#202=FACE_BOUND('',#182,.T.);
#203=FACE_BOUND('',#183,.T.);
#204=FACE_BOUND('',#184,.T.);
#205=FACE_BOUND('',#185,.T.);
#206=FACE_BOUND('',#186,.T.);
#207=FACE_BOUND('',#187,.T.);
#208=FACE_BOUND('',#188,.T.);
#209=FACE_BOUND('',#189,.T.);
#210=PLANE('',#251);
#211=PLANE('',#252);
#212=PLANE('',#253);
#213=PLANE('',#254);
#214=PLANE('',#255);
#215=PLANE('',#256);
#216=PLANE('',#257);
#217=PLANE('',#258);
#218=PLANE('',#259);
#219=PLANE('',#260);
#220=PLANE('',#261);
#221=PLANE('',#268);
#222=PLANE('',#269);
#223=ADVANCED_FACE('',(#190),#210,.F.);
#224=ADVANCED_FACE('',(#191),#211,.F.);
#225=ADVANCED_FACE('',(#192),#212,.T.);
#226=ADVANCED_FACE('',(#193),#213,.T.);
#227=ADVANCED_FACE('',(#194),#214,.T.);
#228=ADVANCED_FACE('',(#195,#196),#215,.F.);
#229=ADVANCED_FACE('',(#197),#216,.T.);
#230=ADVANCED_FACE('',(#198),#217,.T.);
#231=ADVANCED_FACE('',(#199),#218,.T.);
#232=ADVANCED_FACE('',(#200),#219,.T.);
#233=ADVANCED_FACE('',(#201,#202),#220,.T.);
#234=ADVANCED_FACE('',(#203,#204),#12,.F.);
#235=ADVANCED_FACE('',(#205,#206),#13,.T.);
#236=ADVANCED_FACE('',(#207,#208),#221,.T.);
#237=ADVANCED_FACE('',(#209),#222,.T.);
#238=CLOSED_SHELL('',(#223,#224,#225,#226,#227,#228,#229,#230,#231,#232,
#233,#234,#235,#236,#237));
#239=STYLED_ITEM('',(#240),#247);
#240=PRESENTATION_STYLE_ASSIGNMENT((#241));
#241=SURFACE_STYLE_USAGE(.BOTH.,#242);
#242=SURFACE_SIDE_STYLE('',(#243));
#243=SURFACE_STYLE_FILL_AREA(#244);
#244=FILL_AREA_STYLE('',(#245));
#245=FILL_AREA_STYLE_COLOUR('',#246);
#246=COLOUR_RGB('',0.262745098039216,0.282352941176471,0.301960784313725);
#247=MANIFOLD_SOLID_BREP('piece 4',#238);
#248=SHAPE_DEFINITION_REPRESENTATION(#404,#249);
#249=SHAPE_REPRESENTATION('piece 4',(#250),#399);
#250=AXIS2_PLACEMENT_3D('',#334,#270,#271);
#251=AXIS2_PLACEMENT_3D('',#335,#272,#273);
#252=AXIS2_PLACEMENT_3D('',#344,#278,#279);
#253=AXIS2_PLACEMENT_3D('',#350,#283,#284);
#254=AXIS2_PLACEMENT_3D('',#356,#288,#289);
#255=AXIS2_PLACEMENT_3D('',#359,#292,#293);
#256=AXIS2_PLACEMENT_3D('',#360,#294,#295);
#257=AXIS2_PLACEMENT_3D('',#369,#300,#301);
#258=AXIS2_PLACEMENT_3D('',#375,#305,#306);
#259=AXIS2_PLACEMENT_3D('',#379,#309,#310);
#260=AXIS2_PLACEMENT_3D('',#383,#313,#314);
#261=AXIS2_PLACEMENT_3D('',#385,#316,#317);
#262=AXIS2_PLACEMENT_3D('',#386,#318,#319);
#263=AXIS2_PLACEMENT_3D('',#388,#320,#321);
#264=AXIS2_PLACEMENT_3D('',#389,#322,#323);
#265=AXIS2_PLACEMENT_3D('',#391,#324,#325);
#266=AXIS2_PLACEMENT_3D('',#393,#326,#327);
#267=AXIS2_PLACEMENT_3D('',#394,#328,#329);
#268=AXIS2_PLACEMENT_3D('',#396,#330,#331);
#269=AXIS2_PLACEMENT_3D('',#397,#332,#333);
#270=DIRECTION('',(0.,0.,1.));
#271=DIRECTION('',(1.,0.,0.));
#272=DIRECTION('',(-0.304813985537439,-0.938861613298277,-0.160085306308041));
#273=DIRECTION('',(0.95112813845052,-0.308796477064827,0.));
#274=DIRECTION('',(-0.831201041571816,0.344294744477689,-0.436538609306177));
#275=DIRECTION('',(0.464965872630143,-1.2123725764024E-16,-0.885328604129162));
#276=DIRECTION('',(-0.831201041571816,0.344294744477689,-0.436538609306177));
#277=DIRECTION('',(0.464965872630143,-1.2123725764024E-16,-0.885328604129162));
#278=DIRECTION('',(0.885328604129162,-3.06563016711834E-17,0.464965872630143));
#279=DIRECTION('',(0.464965872630143,0.,-0.885328604129162));
#280=DIRECTION('',(-7.14428409915192E-17,-1.,7.00999598841243E-17));
#281=DIRECTION('',(0.464965872630143,-1.2123725764024E-16,-0.885328604129162));
#282=DIRECTION('',(-7.14428409915192E-17,-1.,7.00999598841243E-17));
#283=DIRECTION('',(0.304813985537439,-0.938861613298277,0.160085306308041));
#284=DIRECTION('',(0.95112813845052,0.308796477064827,0.));
#285=DIRECTION('',(-0.831201041571816,-0.344294744477689,-0.436538609306177));
#286=DIRECTION('',(0.464965872630143,-1.2123725764024E-16,-0.885328604129162));
#287=DIRECTION('',(-0.831201041571816,-0.344294744477689,-0.436538609306177));
#288=DIRECTION('',(0.885328604129162,0.,0.464965872630143));
#289=DIRECTION('',(0.464965872630143,0.,-0.885328604129162));
#290=DIRECTION('',(-5.63711872939798E-17,-1.,1.07334812075081E-16));
#291=DIRECTION('',(-5.63711872939798E-17,-1.,1.07334812075081E-16));
#292=DIRECTION('',(-0.464965872630143,1.2123725764024E-16,0.885328604129162));
#293=DIRECTION('',(0.885328604129162,6.36726149263283E-17,0.464965872630143));
#294=DIRECTION('',(-0.464965872630143,1.2123725764024E-16,0.885328604129162));
#295=DIRECTION('',(0.885328604129162,6.36726149263283E-17,0.464965872630143));
#296=DIRECTION('',(0.831201041571816,0.344294744477689,0.436538609306177));
#297=DIRECTION('',(5.63711872939798E-17,1.,-1.07334812075081E-16));
#298=DIRECTION('',(-0.831201041571816,0.344294744477689,-0.436538609306177));
#299=DIRECTION('',(-3.17716599527869E-16,-1.,-2.99212271971868E-17));
#300=DIRECTION('',(0.885328604129162,7.40742286302783E-33,0.464965872630143));
#301=DIRECTION('',(0.464965872630143,0.,-0.885328604129162));
#302=DIRECTION('',(-0.464965872630143,1.2123725764024E-16,0.885328604129162));
#303=DIRECTION('',(5.63711872939798E-17,1.,-1.07334812075081E-16));
#304=DIRECTION('',(-0.464965872630143,1.2123725764024E-16,0.885328604129162));
#305=DIRECTION('',(0.304813985537438,-0.938861613298277,0.160085306308041));
#306=DIRECTION('',(0.95112813845052,0.308796477064827,0.));
#307=DIRECTION('',(-0.464965872630143,1.2123725764024E-16,0.885328604129162));
#308=DIRECTION('',(0.831201041571816,0.344294744477689,0.436538609306177));
#309=DIRECTION('',(-0.885328604129162,2.95195943082576E-16,-0.464965872630143));
#310=DIRECTION('',(-0.464965872630143,0.,0.885328604129162));
#311=DIRECTION('',(-0.464965872630143,1.2123725764024E-16,0.885328604129162));
#312=DIRECTION('',(-3.17716599527869E-16,-1.,-2.99212271971868E-17));
#313=DIRECTION('',(0.304813985537439,0.938861613298277,0.160085306308041));
#314=DIRECTION('',(-0.95112813845052,0.308796477064827,0.));
#315=DIRECTION('',(-0.831201041571816,0.344294744477689,-0.436538609306177));
#316=DIRECTION('',(0.464965872630143,-1.2123725764024E-16,-0.885328604129162));
#317=DIRECTION('',(0.885328604129162,6.36726149263283E-17,0.464965872630143));
#318=DIRECTION('',(0.464965872630143,-1.2123725764024E-16,-0.885328604129162));
#319=DIRECTION('',(-0.885328604129162,0.,-0.464965872630143));
#320=DIRECTION('',(-0.464965872630143,1.2123725764024E-16,0.885328604129162));
#321=DIRECTION('',(0.885328604129162,0.,0.464965872630143));
#322=DIRECTION('',(0.464965872630143,-1.2123725764024E-16,-0.885328604129162));
#323=DIRECTION('',(-0.885328604129162,0.,-0.464965872630143));
#324=DIRECTION('',(0.464965872630143,-1.2123725764024E-16,-0.885328604129162));
#325=DIRECTION('',(-0.885328604129162,0.,-0.464965872630143));
#326=DIRECTION('',(-0.464965872630143,1.2123725764024E-16,0.885328604129162));
#327=DIRECTION('',(0.885328604129162,0.,0.464965872630143));
#328=DIRECTION('',(0.464965872630143,-1.2123725764024E-16,-0.885328604129162));
#329=DIRECTION('',(-0.885328604129162,0.,-0.464965872630143));
#330=DIRECTION('',(0.464965872630143,-1.2123725764024E-16,-0.885328604129162));
#331=DIRECTION('',(0.885328604129162,6.36726149263283E-17,0.464965872630143));
#332=DIRECTION('',(0.464965872630143,-1.2123725764024E-16,-0.885328604129162));
#333=DIRECTION('',(0.885328604129162,6.36726149263283E-17,0.464965872630143));
#334=CARTESIAN_POINT('',(0.,0.,0.));
#335=CARTESIAN_POINT('',(-0.0466253284367607,0.0190239506328802,0.0887779929061938));
#336=CARTESIAN_POINT('',(-0.0459278796278154,0.0190239506328802,0.08745));
#337=CARTESIAN_POINT('',(-0.032123355989062,0.0133059297196085,0.0947));
#338=CARTESIAN_POINT('',(-0.0597324032665688,0.0247419715461518,0.0802));
#339=CARTESIAN_POINT('',(-0.0604298520755141,0.0247419715461518,0.0815279929061937));
#340=CARTESIAN_POINT('',(-0.0604298520755141,0.0247419715461518,0.0815279929061937));
#341=CARTESIAN_POINT('',(-0.0466253284367607,0.0190239506328802,0.0887779929061938));
#342=CARTESIAN_POINT('',(-0.0328208047980072,0.0133059297196085,0.0960279929061938));
#343=CARTESIAN_POINT('',(-0.0328208047980072,0.0133059297196085,0.0960279929061938));
#344=CARTESIAN_POINT('',(-0.0604298520755141,1.05901967423212E-17,0.0815279929061937));
#345=CARTESIAN_POINT('',(-0.0597324032665688,1.04083408558608E-17,0.0802));
#346=CARTESIAN_POINT('',(-0.0597324032665688,-0.0247419715461518,0.0802));
#347=CARTESIAN_POINT('',(-0.0604298520755141,-0.0247419715461518,0.0815279929061937));
#348=CARTESIAN_POINT('',(-0.0604298520755141,-0.0247419715461518,0.0815279929061937));
#349=CARTESIAN_POINT('',(-0.0604298520755141,1.05901967423212E-17,0.0815279929061937));
#350=CARTESIAN_POINT('',(-0.0466253284367607,-0.0190239506328801,0.0887779929061938));
#351=CARTESIAN_POINT('',(-0.0459278796278154,-0.0190239506328801,0.08745));
#352=CARTESIAN_POINT('',(-0.032123355989062,-0.0133059297196085,0.0947));
#353=CARTESIAN_POINT('',(-0.0328208047980072,-0.0133059297196085,0.0960279929061937));
#354=CARTESIAN_POINT('',(-0.0328208047980072,-0.0133059297196085,0.0960279929061937));
#355=CARTESIAN_POINT('',(-0.0466253284367607,-0.0190239506328801,0.0887779929061938));
#356=CARTESIAN_POINT('',(-0.0328208047980072,8.8554732663444E-18,0.0960279929061938));
#357=CARTESIAN_POINT('',(-0.032123355989062,8.67361737988404E-18,0.0947));
#358=CARTESIAN_POINT('',(-0.0328208047980072,8.8554732663444E-18,0.0960279929061938));
#359=CARTESIAN_POINT('',(-0.0466253284367607,5.21840040303396E-18,0.0887779929061938));
#360=CARTESIAN_POINT('',(-0.0459278796278154,5.0365445165736E-18,0.08745));
#361=CARTESIAN_POINT('',(-0.0459278796278155,-0.0161474307548011,0.08745));
#362=CARTESIAN_POINT('',(-0.0571857379381594,-0.0208105883502202,0.081537483575249));
#363=CARTESIAN_POINT('',(-0.0346700213174716,-0.011484273159382,0.0933625164247511));
#364=CARTESIAN_POINT('',(-0.0346700213174716,8.67361737988404E-18,0.0933625164247511));
#365=CARTESIAN_POINT('',(-0.0346700213174716,0.011484273159382,0.0933625164247511));
#366=CARTESIAN_POINT('',(-0.0459278796278154,0.0161474307548011,0.08745));
#367=CARTESIAN_POINT('',(-0.0571857379381594,0.0208105883502202,0.081537483575249));
#368=CARTESIAN_POINT('',(-0.0571857379381594,1.04083408558608E-17,0.081537483575249));
#369=CARTESIAN_POINT('',(-0.0316477431453756,7.88557520522247E-18,0.0876078804979115));
#370=CARTESIAN_POINT('',(-0.0316477431453756,-0.011484273159382,0.0876078804979115));
#371=CARTESIAN_POINT('',(-0.0316477431453756,-0.011484273159382,0.0876078804979115));
#372=CARTESIAN_POINT('',(-0.0316477431453756,7.88557520522247E-18,0.0876078804979115));
#373=CARTESIAN_POINT('',(-0.0316477431453756,0.011484273159382,0.0876078804979115));
#374=CARTESIAN_POINT('',(-0.0316477431453756,0.011484273159382,0.0876078804979115));
#375=CARTESIAN_POINT('',(-0.0429056014557195,-0.0161474307548011,0.0816953640731605));
#376=CARTESIAN_POINT('',(-0.0541634597660635,-0.0208105883502202,0.0757828476484095));
#377=CARTESIAN_POINT('',(-0.0541634597660635,-0.0208105883502202,0.0757828476484095));
#378=CARTESIAN_POINT('',(-0.0429056014557195,-0.0161474307548011,0.0816953640731605));
#379=CARTESIAN_POINT('',(-0.0541634597660634,9.62029868119928E-18,0.0757828476484095));
#380=CARTESIAN_POINT('',(-0.0541634597660634,0.0208105883502202,0.0757828476484095));
#381=CARTESIAN_POINT('',(-0.0541634597660634,0.0208105883502202,0.0757828476484095));
#382=CARTESIAN_POINT('',(-0.0541634597660634,9.62029868119928E-18,0.0757828476484095));
#383=CARTESIAN_POINT('',(-0.0429056014557195,0.0161474307548011,0.0816953640731605));
#384=CARTESIAN_POINT('',(-0.0429056014557195,0.0161474307548011,0.0816953640731605));
#385=CARTESIAN_POINT('',(-0.0429056014557195,4.24850234191203E-18,0.0816953640731605));
#386=CARTESIAN_POINT('',(-0.0429056014557195,1.06975375261603E-17,0.0816953640731605));
#387=CARTESIAN_POINT('',(-0.0499882302887528,1.06975375261603E-17,0.0779756370921194));
#388=CARTESIAN_POINT('',(-0.0424406355830894,1.06987649484348E-17,0.0808100354690313));
#389=CARTESIAN_POINT('',(-0.0424406355830894,1.06987649484348E-17,0.0808100354690313));
#390=CARTESIAN_POINT('',(-0.0477526072078644,1.06987649484348E-17,0.0780202402332504));
#391=CARTESIAN_POINT('',(-0.0452304308188703,1.14261884942763E-17,0.0861220070938063));
#392=CARTESIAN_POINT('',(-0.0505424024436453,1.14261884942763E-17,0.0833322118580254));
#393=CARTESIAN_POINT('',(-0.0424406355830894,1.05763002685201E-17,0.0808100354690313));
#394=CARTESIAN_POINT('',(-0.0424406355830894,1.05763002685201E-17,0.0808100354690313));
#395=CARTESIAN_POINT('',(-0.0495232644161227,1.05763002685201E-17,0.0770903084879901));
#396=CARTESIAN_POINT('',(-0.0424406355830894,1.1066158988179E-17,0.0808100354690313));
#397=CARTESIAN_POINT('',(-0.0452304308188702,4.85468863011324E-18,0.0861220070938063));
#398=MECHANICAL_DESIGN_GEOMETRIC_PRESENTATION_REPRESENTATION('',(#239),
#399);
#399=(
GEOMETRIC_REPRESENTATION_CONTEXT(3)
GLOBAL_UNCERTAINTY_ASSIGNED_CONTEXT((#400))
GLOBAL_UNIT_ASSIGNED_CONTEXT((#403,#402,#401))
REPRESENTATION_CONTEXT('piece 4','TOP_LEVEL_ASSEMBLY_PART')
);
#400=UNCERTAINTY_MEASURE_WITH_UNIT(LENGTH_MEASURE(1.E-8),#403,
'DISTANCE_ACCURACY_VALUE','Maximum Tolerance applied to model');
#401=(
NAMED_UNIT(*)
SI_UNIT($,.STERADIAN.)
SOLID_ANGLE_UNIT()
);
#402=(
NAMED_UNIT(*)
PLANE_ANGLE_UNIT()
SI_UNIT($,.RADIAN.)
);
#403=(
LENGTH_UNIT()
NAMED_UNIT(*)
SI_UNIT($,.METRE.)
);
#404=PRODUCT_DEFINITION_SHAPE('','',#405);
#405=PRODUCT_DEFINITION('','',#407,#406);
#406=PRODUCT_DEFINITION_CONTEXT('',#413,'design');
#407=PRODUCT_DEFINITION_FORMATION_WITH_SPECIFIED_SOURCE('','',#409,
 .NOT_KNOWN.);
#408=PRODUCT_RELATED_PRODUCT_CATEGORY('','',(#409));
#409=PRODUCT('piece 4','piece 4','piece 4',(#411));
#410=PRODUCT_CATEGORY('','');
#411=PRODUCT_CONTEXT('',#413,'mechanical');
#412=APPLICATION_PROTOCOL_DEFINITION('international standard',
'ap242_managed_model_based_3d_engineering',2011,#413);
#413=APPLICATION_CONTEXT('managed model based 3d engineering');
ENDSEC;
END-ISO-10303-21;
